difficulty level 3Difficulty level 3/5

chords or tablatures

--2--------5---4---3--------------
--0-------------------------------
--4--------9---8---7--------------
-----------7---6---5--------------

------7-----6--------5---4---3--------------------------------------
--0-0---0-0---0-0---------------------0-0-7-0-0-6-0-0-5-0-4-0-3-0-2-
---------------------9---8---7--------------------------------------
---------------------7---6---5--------------------------------------

------2-----3-----4-----3-----2-2-----2-----3------5\4---5\4---5\4--
--0-1---0-1---0-1---0-1---0-1-----0-1---0-1---0-0--3\2-0-3\2-0-3\2--
--------------------------------------------------------------------
--------------------------------------------------------------------

------2-----3-----4-----3-----2-2-----2-----3-----4-----3-----2-----
--0-1---0-1---0-1---0-1---0-1-----0-1---0-1---0-1---0-1---0-1-------
--------------------------------------------------------------6-----
--------------------------------------------------------------4-----

------2-----3-----4-----3-----2-2-----2-----3------5\4---5\4---5\4--
--0-1---0-1---0-1---0-1---0-1-----0-1---0-1---0-0--3\2-0-3\2-0-3\2--
--------------------------------------------------------------------
--------------------------------------------------------------------

------2-----3-----4-----3-----2-2-----2-----3-----4-----3-----2-----
--0-1---0-1---0-1---0-1---0-1-----0-1---0-1---0-1---0-1---0-1-------
--------------------------------------------------------------6-----
--------------------------------------------------------------4-----

------2-----3-----4-----3-----2-2-----2-----3------5\4---5\4---5\4--
--0-1---0-1---0-1---0-1---0-1-----0-1---0-1---0-0--3\2-0-3\2-0-3\2--
--------------------------------------------------------------------
--------------------------------------------------------------------

--5\4---5\4---5\4--2----7------7------7------7------7---------------
--3\2-0-3\2-0-3\2--0--0------0------0------0------0-----------------
-------------------4-----------------------------------v------------
--------------------------3------3------3------3------3-------------

------------------5/7--8\7--5/7------------------5/7--5/7-----------
--0-0-0-0-0-0-0-0-3/5--6\5--3/5--0-0-0-0-0-0-0-0-3/5--3/5-----------
--------------------------------------------------------------------
--------------------------------------------------------------------

-------------------0-2--3\2-0-2-------------------0h2-0h2-----------
--2-2-2-2-2-2-2-2----------------2-2-2-2-2-2-2-2--------------------
-------------------6-6--7-6-6-6-------------------6---6-------------
--------------------------------------------------------------------

--2-2-2-2-2-2-2-2----
--2-2-2-2-2-2-2-2----
---------------------
--4-4-4-4-4-4-4-4----

--7-------5--7--7-9---10--9h10-----------10---9------------6--9-----
--0-0-0-0----------------------8-8-8-8-8---7----8-8-8-8----7--------
--11-------9--11-------------------------12---11------------10--11--
--9-------7--9------4-----------------------------------8-----------

--7-------5--7--7-9--10-9h10-------10---9--9-7-6--6------2-2---1-1--
--0-0-0-0--------------------88888---7-----------8-7--0-0---1-1-----
--11-------9--11-------------------12---11----------------4-4---5-5-
--9-------7--9------4-----------------------------------------------

--2------4------5---3--0-0-2-0-0-0---5------3----2---2------7-----3-
--0--0-0-2--0-0-3-----------------------0-0---00-----0--0-0---0-0---
--------------------7------6-----4---9------7----6----------11-----7
------------------------------------------------------------------5-

--2--2----3--3--------2------5-----3--------2--2----3--3------------
--0--0----1--1--------0--0-0---0-0----------0--0----1--1------------
--4--4----5--5---------------9-----7--------------------------------
-----------------------------------5--------------------------------

------2-----3-----4-----3-----2-2-----2-----3-----4-----3-----2-----
--0-1---0-1---0-1---0-1---0-1-----0-1---0-1---0-1---0-1---0-1-------
--------------------------------------------------------------6-----
--------------------------------------------------------------4-----

------2-----3-----4-----3-----2-2-----2-----3------5\4---5\4---5\4--
--0-1---0-1---0-1---0-1---0-1-----0-1---0-1---0-0--3\2-0-3\2-0-3\2--
--------------------------------------------------------------------
--------------------------------------------------------------------

--5\4---5\4---5\4----
--3\2-0-3\2-0-3\2----
---------------------
---------------------

------------------5/7--8\7--5/7------------------5/7--5/7-----------
--0-0-0-0-0-0-0-0-3/5--6\5--3/5--0-0-0-0-0-0-0-0-3/5--3/5-----------
--------------------------------------------------------------------
--------------------------------------------------------------------

-------------------0-2--3\2-0-2-------------------0h2-0h2-----------
--2-2-2-2-2-2-2-2----------------2-2-2-2-2-2-2-2--------------------
-------------------6-6--7-6-6-6-------------------6---6-------------
--------------------------------------------------------------------

--2-2-2-2-2-2-2-2----
--2-2-2-2-2-2-2-2----
---------------------
--4-4-4-4-4-4-4-4----

--7-------5--7--7-9---10--9h10-----------10---9------------6--9-----
--0-0-0-0----------------------8-8-8-8-8---7----8-8-8-8----7--------
--11-------9--11-------------------------12---11------------10--11--
--9-------7--9------4-----------------------------------8-----------

--7-------5--7--7-9---10--9h10------10---9--9-7-6--6------2-2---1-1-
--0-0-0-0---------------------88888---7-----------8-7--0-0---1-1----
--11-------9--11--------------------12---11----------------4-4---5-5
--9-------7--9------4-----------------------------------------------

--2------4------5---3--0-0-2-0-0-0---5----3-----2---2------7-----3--
--0--0-0-2--0-0-3---------------------0-0---0-0-----0--0-0---0-0----
--------------------7------6-----4---9----7-----6----------11-----7-
-----------------------------------------------------------------5--

--2--2----3--3--------2------5-----3--------2--2----3--3------------
--0--0----1--1--------0--0-0---0-0----------0--0----1--1------------
--4--4----5--5---------------9-----7--------------------------------
-----------------------------------5--------------------------------

H

---2----------5--------5--------5---5-----2-0---2-0-2---2-------2-2-
-----0-----------0-2-0-----3------------0---------------------------
-4--------2-----------------0-----------------------------2-3-------
-------0----2---2--------2----0---0---0-------2-------2-------2-----

-------------------------------------------------------------------}
-------------------------------------------------------------------}
-------------------------------------------------------------------}
--9--16--12--9--14--11--7--7--7--7--14--11--7--12--9--5--5--5--5---}

H

-------------------------------------------------------------------}
-------------------------------------------------------------------}
-------------------------------------------------------------------}
--12--9--5--11--9--11--9--8--5--4--5--7--5--7--8--9--11------------}

--------------------------------------------------------------------
--------------------------------------------------------------------
--------------------------------------------------------------------
--9--9--9--9--11--12--11--12--14--11--16--12--9--5------------------

--------------------------------------------------------------------
----------------------------3--5--3------5--3-----------------------
-------------------------------------9------------------------------
--7---7---12--11--4--12--11--4-----------7-b-------9----------------

H

--------------------------------------------------------------------
--3--------3--3--5--3--------5--3-----------------------------------
-----------------------6-----------6--------------------------------
-----9--7-----------------7-----------5-----------------------------

S

------------------------------------------------9-------------------
--5--------5--------------3-----------------6-----------------------
---------------------4-5--------------------------------------------
----4-5------4-5--7----------12--8--9--8--4-----9---16--------------

-------------------------------------------------------------------}
-------------------------------------------------------------------}
-------------------------------------------------------------------}
--9--16--12--9--14--11--7--7--7--7--14--11--7--12--9--5--5--5--5---}

H

-------------------------------------------------------------------}
-------------------------------------------------------------------}
-------------------------------------------------------------------}
--12--9--5--11--9--11--9--8--5--4--5--7--5--7--8--9--11------------}

H

--2----------5--------5-----------5-5-----2-0---2-0-2---2-------2-2-
----0-----------0-2-0-----3-------------0---------------------------
4--------2--------------------0---------------------------2-3-------
------0----2---2--------2-------0--0--0-------2-------2-------2-----

--2--2--2--2--2--2--2--2--2--2--2--2--2--2--2--2--------------------
--0--0--0--0--0--0--0--0--0--0--0--0--0--0--0--0--------------------
--------------------------------------------------------------------
--------------------------------------------------------------------

4-4-5-4-4-4-5-4-4-4-4-5-4-4-4-5-4-4-4-5-4-4-4-5-4-4-4-4-5-4-4-4-5-4-
2-2-3-2-2-2-3-----2-2-3-2-2-2-3---2-2-3-2-2-2-3-----2-2-3-2-2-2-3---
--------------8-8---------------8---------------8-8---------------8-
--------------------------------------------------------------------

--5--------4--------2-----------------------------------------------
--3--------2--------0-----------------------------------------------
--------------------------------------------------------------------
--------------------------------------------------------------------

P

--------------------------------------------------------------------
--------------------------------------------------------------------
--------------------------------------------------------------------
--14--9--5--4--5--9--14--9--5--4--5--9--14-9-5-4-5-9-12-9-5-4-5-9---

P

--------------------------------------------------------------------
--------------------------------------------------------------------
--------------------------------------------------------------------
--14--9--5--4--5--9--14--9--5--4--5--9--14-9-5-4-5-9-12-9-5-4-5-9---

--------------------------------------------------------------------
--------------------------------------------------------------------
--------------------------------------------------------------------
16-16-16-14-14-14-12-12-12-11-11-11-14-14-14-12-12-12-11-11-11-7-7-7

P

--------------------------------------------------------------------
-------------------------------5------23b-23b-23b--24b-24b-24b------
--------------------------------------------------------------------
--9----9--7--6--14--12--7--6--4-------------------------------------

H

--------------------------------------------------------------------
---------------------0-0-2---------5------5--3----------------------
--------------------------------------------------------------------
--2-4-2b-4-3-2-2-4-2--------7--5-4----5-4------4--------------------

P

--------------------------------------------------------------------
--------------------------------------------------------------------
--------------------------------------------------------------------
--7--5-4-7--5-4-9--7--6-9--7--6-11--9--8--11--9--8------------------

P

--------------------------------------------------------------------
--------------------------------------------------------------------
--------------------------------------------------------------------
14-12-11-16-14-11-14-12-11-16-14-11-14-12-11-16-14-11-14-12-11-16-14

P

--------------------------------------------------------------------
--------------------------------------------------------------------
--------------------------------------------------------------------
9---11--9---11--9---11--9---11--16--11--9--11--16-11-9-11-16-11-9-11

--------------------------------------------------------------------
--------------------------------------------------------------------
--------------------------------------------------------------------
--9---11--9---11--9---11--9---11--10---12--10---12--10---12--10---12

Ssssssssssss...

-------------------------------------43------43---------------------
--------------------------------------------22----------------------
--------------------------------------------------------------------
--11---13--11---13--12---14--12--14------15------15-----------------

------4-----5-----4-----5-----2-2-----4-----5-----4-----5-----2-----
--0-0-2-0-0-3-0-0-2-0-0-3-0-0-----0-0-2-0-0-3-0-0-2-0-0-3-0-0-------
------------------------------6-6-----------------------------6-----
--------------------------------------------------------------------

------4-----5-----4-----5-----2-2-----4-----5-----4-----5-----2-----
--0-0-2-0-0-3-0-0-2-0-0-3-0-0-----0-0-2-0-0-3-0-0-2-0-0-3-0-0-------
------------------------------6-6-----------------------------6-----
--------------------------------------------------------------------

--------------------------2-3-5-7-9-10-3--333-2-3-5-3-2-------------
--0-0-0-0-0-0-0-000-2-3-5-------------------------------3-2---------
---------------------------------------7----------------------------
--------------------------------------------------------------------

--------------------------2-3-5-7-9-10-3--333-2-3-5-3-2-------------
--0-0-0-0-0-0-0-000-2-3-5-------------------------------3-2---------
---------------------------------------7----------------------------
--------------------------------------------------------------------

--------------------------2-3-5-7-9-10-3--333-2-3-5-3-2-------------
--0-0-0-0-0-0-0-000-2-3-5-------------------------------3-2---------
---------------------------------------7----------------------------
--------------------------------------------------------------------

-----------------2-3-5-7-9-10-3--333-2-3-5-3-2--2--333-2-3-5-3-2----
0000000000-2-3-5------------------------------320----------------3-2
---------------------------------------7----------------------------
--------------------------------------------------------------------

------2-----3-----4-----3-----2-2-----2-----3------5\4---5\4---5\4--
--0-1---0-1---0-1---0-1---0-1-----0-1---0-1---0-0--3\2-0-3\2-0-3\2--
--------------------------------------------------------------------
--------------------------------------------------------------------

------2-----3-----4-----3-----2-2-----2-----3------5\4---5\4---5\4--
--0-1---0-1---0-1---0-1---0-1-----0-1---0-1---0-0--3\2-0-3\2-0-3\2--
--------------------------------------------------------------------
--------------------------------------------------------------------

--5\4---5\4---5\4----
--3\2-0-3\2-0-3\2----
---------------------
---------------------

------------------5/7--8\7--5/7------------------5/7--5/7-----------
--0-0-0-0-0-0-0-0-3/5--6\5--3/5--0-0-0-0-0-0-0-0-3/5--3/5-----------
--------------------------------------------------------------------
--------------------------------------------------------------------

-------------------0-2--3\2-0-2-------------------0h2-0h2-----------
--2-2-2-2-2-2-2-2----------------2-2-2-2-2-2-2-2--------------------
-------------------6-6--7-6-6-6-------------------6---6-------------
--------------------------------------------------------------------

--2-2-2-2-2-2-2-2----
--2-2-2-2-2-2-2-2----
---------------------
--4-4-4-4-4-4-4-4----

--7-------5--7--7-9---10--9h10-----------10---9------------6--9-----
--0-0-0-0----------------------8-8-8-8-8---7----8-8-8-8----7--------
--11-------9--11-------------------------12---11------------10--11--
--9-------7--9------4-----------------------------------8-----------

--7-------5--7--7-9---10--9h10-------10---9--9-7-6--6-----2-2---1-1-
--0-0-0-0----------------------88888---7-----------8-7-0-0---1-1----
--11-------9--11---------------------12---11---------------4-4---5-5
--9-------7--9------4-----------------------------------------------

--2------4------5---3--0-0-2-0-0-0--5------3-----2---2------7-----3-
--0--0-0-2--0-0-3----------------------0-0---0-0-----0--0-0---0-0---
--------------------7------6-----4--9------7-----6----------11-----7
------------------------------------------------------------------5-

--2--2----3--3--------2------5-----3--------2--2----3--3---------2--
--0--0----1--1--------0--0-0---0-0----------0--0----1--1---------0--
--4--4----5--5---------------9-----7--------------------------------
-----------------------------------5--------------------------------

------------------5/7--8\7--5/7------------------5/7--5/7-----------
--0-0-0-0-0-0-0-0-3/5--6\5--3/5--0-0-0-0-0-0-0-0-3/5--3/5-----------
--------------------------------------------------------------------
--------------------------------------------------------------------

--5\4---5\4---5\4-2-------------------------------------------------
--3\2-0-3\2-0-3\2-0-------------------------------------------------
--------------------------------------------------------------------
--------------------------------------------------------------------    
This arrangement for the song is the author's own work and represents their interpretation of the song. You may only use this for private study, scholarship, or research.

one Comment

Feel free to leave a comment!

Login / Register



Do not ask for strumming patterns. Sharing online how to literally play a song (i.e. strumming, rhythm and tempo) is not allowed by the MPA (Music Publishers Association) because of copyright issues. Carefully listen to the song and "feel" the rhythm. Once you get the basics of strumming, it'll go real quick.

MandoTabs.com 2013-2017. MandoTabs does not own any songs, lyrics or arrangements posted.
HomeMy FavoritesTop TabsChord ChartsMandoTunerRequest TabsContact