chords or tablatures

Switch orientation
Lyrics don't fit on one line? Try landscape mode instead of portrait.

Verse:

A|--7-7-10-7-5-3-2-| - 12x -
E|-----------------|
C|-----------------|
G|-----------------|

I'm gonna fight 'em all
a nation army couldn't hold me back
They're gonna rip it off
Taking their time right behind my back

And I'm talking to myself at night
Because I can't forget
Back and forth through my mind
Behind a cigarette


Bridge:

A|-----------------------------------|
E|---3-3-3-3-3-3-3-3-5-5-5-5-5-5-5-5-|
C|---2-2-2-2-2-2-2-2-4-4-4-4-4-4-4-4-|
G|-----------------------------------|

And the message coming from my eyes
Says leave it alone


Chorus:

A|--7-7-10-7-5-3-2-7-10-7-5-3-5-3-2-0-| - 2x -
E|--7-7-10-7-5-3-2-7-10-7-5-3-5-3-2-0-|
C|------------------------------------|
G|------------------------------------|


Bridge:

A|-----------------------------------|
E|---3-3-3-3-3-3-3-3-5-5-5-5-5-5-5-5-|
C|---2-2-2-2-2-2-2-2-4-4-4-4-4-4-4-4-|
G|-----------------------------------|


Verse:

A|--7-7-10-7-5-3-2-|
E|-----------------|
C|-----------------|
G|-----------------|

Don't want to hear about it
Every single one's got a story to tell
Everyone knows about it
From the Queen of England to the hounds of hell

And if I catch it coming back my way
I'm gonna serve it to you
And that aint what you want to hear
But thats what I'll do


Bridge:

A|-----------------------------------|
E|---3-3-3-3-3-3-3-3-5-5-5-5-5-5-5-5-|
C|---2-2-2-2-2-2-2-2-4-4-4-4-4-4-4-4-|
G|-----------------------------------|

And the feeling coming from my bones
Says find a home


Chorus:

A|--7-7-10-7-5-3-2-7-10-7-5-3-5-3-2-0-|
E|--7-7-10-7-5-3-2-7-10-7-5-3-5-3-2-0-|
C|------------------------------------|
G|------------------------------------|


Bridge:

A|-----------------------------------|
E|---3-3-3-3-3-3-3-3-5-5-5-5-5-5-5-5-|
C|---2-2-2-2-2-2-2-2-4-4-4-4-4-4-4-4-|
G|-----------------------------------|


Verse:

A|--7-7-10-7-5-3-2-|
E|-----------------|
C|-----------------|
G|-----------------|

I'm going to Wichita
Far from this opera for evermore
I'm gonna work the straw
Make the sweat drip out of every pore
And I'm bleeding, and I'm bleeding, and I'm bleeding
Right before the lord
All the words are gonna bleed from me
And I will sing no more


Bridge:

A|-----------------------------------|
E|---3-3-3-3-3-3-3-3-5-5-5-5-5-5-5-5-|
C|---2-2-2-2-2-2-2-2-4-4-4-4-4-4-4-4-|
G|-----------------------------------|

And the stains coming from my blood
Tell me go back home


Chorus:

A|--7-7-10-7-5-3-2-7-10-7-5-3-5-3-2-0-|
E|--7-7-10-7-5-3-2-7-10-7-5-3-5-3-2-0-|
C|------------------------------------|
G|------------------------------------|


Bridge:

A|-----------------------------------|
E|---3-3-3-3-3-3-3-3-5-5-5-5-5-5-5-5-|
C|---2-2-2-2-2-2-2-2-4-4-4-4-4-4-4-4-|
G|-----------------------------------|    

This arrangement for the song is the author's own work and represents their interpretation of the song. You may only use this for private study, scholarship, or research. MandoWorld and its derivatives do not own any songs, lyrics or arrangements posted and/or printed.

Leave a Comment

Your email address will not be published. Required fields are marked *

Want to talk about something more than only this song? Check out the UkuWorld Community today! Talk about similar interests or get some ukulele related help. Login with your UkuTabs account or create a new one and join the conversations.

Please do not ask for strumming patterns. Sharing online how to literally play a song (i.e. strumming, rhythm and tempo) is not allowed by the MPA (Music Publishers Association) because of copyright issues.

Carefully listen to the song and try to really "feel" the rhythm. Once you get the basics of strumming, I can assure you it'll go real quick. Maybe the strumming guide can help you on your way.