Intro:

You can play these chords over the Intro part:
    Eb Ab Eb Bb Eb
    Eb Ab Eb Bb Cm Bb Eb

Or you can try this tab - transposed from the guitar tabs, at the bottom you can find the capo version -: 
                       
-6-6-6---6--6-6--------6-6-----8-6--------6-6------55----------x--x-----3-5----
--6-6---6--6-6--3---4-4-4----33----------3----3---6-----3----33x33x3--6--------
----------------------------------------3-------------------3-3x33x3---------3-
3-----3---3----3-----5----5x------5-3------3-3-3-----5-3-3----3x33x3-----------
       
-6-6-6---6--6-6--------6-6-----8-6-----6-6-5-5---6-5-556------------------3-5--
--6-6---6--6-6--3---4-4-4----33---------------------------3-4-6-3-6---3-6------
--------------------------------------------------------5-----------5---------3
3-----3---3----3-----5----5x------5-3---3-3-3-3x--3-3--------------5-----------


Eb   
 Gonna put the the world away for a minute 
Ab
 Pretend I don't live in it 
Eb               Bb              Eb
 Sunshine gonna wash my blues away 
Eb   
 Had sweet love but I lost it 
Ab
 She got too close so I fought her 
         Eb           Bb               Cm        Bb      Eb
 Now I'm lost in the world trying to find me a better way 

              Eb   
 Wishing I was knee deep in the water somewhere 
         Ab
 Got the blue sky breeze and it don't seem fair 
      Eb                         Bb                   Eb 
 Only worry in the world is the tide gonna reach my chair 
Eb   
 Sunrise there's a fire in the sky 
       Ab
 Never been so happy, never felt so high 
       Eb                  Bb           Cm          Bb   Eb
 And I think I might have found me my own kind of paradise 

Eb Ab Eb Bb Eb

Eb   
 Wrote a note said be back in a minute 
Ab
 Bought a boat and I sailed off in it   
 Eb                           Bb          Eb
 Don't think anybody's gonna miss me anyway 
Eb                               
 Mind on a permanent vacation      
F                         
 The ocean is my only medication    
 Eb             Bb            Cm         Bb   Eb
 Wishing my condition ain't ever gonna go away 

               Eb   
 Cause now I'm knee deep in the water somewhere 
         Ab
 Got the blue sky breeze blowing wind through my hair 
      Eb                         Bb                   Eb 
 Only worry in the world is the tide gonna reach my chair 
Eb   
 Sunrise there's a fire in the sky 
       Ab
 Never been so happy, never felt so high 
       Eb                  Bb           Cm          Bb   Eb
 And I think I might have found me my own kind of paradise 

      Cm                      Eb
 This champagne shore washing over me 
        Bb                               Eb      
 It's a sweet, sweet life living by the salty sea 
 Ab                       Eb
 One day you could be as lost as me 
                 F7
 Change you're geography 
       Bb
 Maybe you might be

 Eb        
 Knee deep in the water somewhere 
          Ab 
 Got the blue sky breeze blowing wind through my hair  
       Eb                         Bb                   Eb 
 Only worry in the world is the tide gonna reach my chair  
Eb                                       
 Sunrise there's a fire in the sky         
       Ab                                   
 Never been so happy, never felt so high    
       Eb                  Bb           Cm          Bb   Eb
 And I think I might have found me my own kind of paradise 

 Eb                            Bb     
 Come on in the water's nice, find yourself a little slice 
Eb           Bb                 Cm           Bb       Ab     
 Grab a backpack of lies, you never know until you try 
          F7                 Bb                  Eb   
 When you lose yourself, you find the key to paradise

Outro - same is Intro -:
    Eb Ab Eb Bb Eb
    Eb Ab Eb Bb Cm Bb Eb


With a capo on the third fret the Intro and Outro becomes:
                    
-3-3-3---3--3-3--------3-3-----5-3--------3-3------22----------x--x-----0-2----
--3-3---3--3-3--0---1-1-1----00----------0----0---3-----0----00x00x0--3--------
----------------------------------------0-------------------0-0x00x0---------0-
0-----0---0----0-----2----28------2-0------0-0-0-----2-0-0----0x00x0-----------
          
-3-3-3---3--3-3--------3-3-----5-3-----3-3-2-2---3-2-223------------------0-2--
--3-3---3--3-3--0---1-1-1----00---------------------------0-1-3-0-3---0-3------
--------------------------------------------------------2-----------2---------0
0-----0---0----0-----2----28------2-0---0-0-0-08--0-0--------------2-----------